Make your own free website on Tripod.com
 Cafe Tacuba
 ESA NOCHE
 Cafe Tacuba
 Re (1994)

O,K this is my first written tabalture so don't blame me! ;)
I don't have the track so this is the way i play it "of ear".

Song Starts something like:

//------------
INTRO
//------------
 

E---2-----5-----4-----7-------9----9---7----5---4----2--------|
A-------------------------------------------------------------|
D---2-----6-----4-----7----10---10-----7----6---4----2--------|
g-------------------------------------------------------------|
b-------------------------------------------------------------|
e-------------------------------------------------------------|

E---2-----5-----4-----7-------9----9---7----5---2-------------|
A-------------------------------------------------------------|
D---2-----6-----4-----7----10---10-----7----6---2-------------|
g-------------------------------------------------------------|
b-------------------------------------------------------------|
e-------------------------------------------------------------|

//----------------------
This is the Rhy Fig. A
//----------------------
        F#m               C#m7
No me hubieras dejado esa noche
                            F#m
porque esa misma noche encontre un amor
        F#m               C#m7
No me hubieras dejado esa noche
                            F#m
porque esa misma noche encontre un amor
 
 

//---------------------
This is the Rhy. Fig. B
//---------------------
     Bm                 F#m
Parecia que estaba esperando
     C#m7        F#m
tu momento de partir
     Bm                 F#m
Parecia haber observado
     C#m7        F#m
mis momentos junto a ti
 
 
 

//--------------------
w/Rhy Fig B (first 6 bars)
//--------------------
Me abrazo el instante mismo
que tu me dijiste adios
y no fue una gran tristeza
         C#m7           F#7
fue como ir de menor a mayor
 
 
 

//-------------------
This is the Rhy Fig C
//-------------------
F#7                   C#m7
Tu regreso habia esperado,
        Bm         F#m
mas te veias muy feliz
        Bm           F#m
en los brazos de tu amada
      C#m7         F#m
te olvidaste tu de mi
 

//-------------------
w/Rhy Fig C
//-------------------
mas ahora que recuerdas
a mis brazos vuelves ya
sere por siempre tu amada
tu novia la soledad

//-------------------
w/Rhy Fig C
//-------------------
y si alguna vez regresas
con aquella que te amo
sabes? no sera lo mismo
pues tambien me conocio
 

//----------------------
w/Rhy Fig. A
//----------------------
No me hubieras dejado esa noche
porque esa misma noche encontre un amor

//----------------------
w/Rhy Fig. A
//----------------------
Mi soledad, siempre he pertencido a ti
Ay! soledad, siempre he pertenecido a ti.